Important Words

Written by Gene Vincent
Recorded by Bob Dylan April 1987, planned for release onDown in the Groove

Tabbed by Eyolf Østrem


  A                                                   D
  :     .     .     .       :     .     .     .       :     .     .     .
|-------------------------|-------------------------|-------------------------|
|-------------------------|----------/3-5--\3---2---|-3-----------3---3-------|
|-------------------------|----------/4-6--\4---2---|-2---------2h4---2---2---|
|-------------2-----4-2---|-----------------------2-|-4-------------------2---|
|-0--------/4-----------4-|-0-----------------------|-------------------------|
|-------------------------|-------------------------|-------------------------|
                            A6          F#m           D           E
  :     .     .     .       :     .     .     .       :     .     .     .
|-------------------------|-------------------------|-----------2-------------|
|-3-----------------------|/7---5-----7-2-----2-----|-------------------------|
|-2---------------------0-|/6---4-----6-2-----2-4-2-|-2-----2-4---2-----1-----|
|-4-----------------2-4---|---------------------4-2-|-2-----------2-----2-----|
|-------------------------|-------------------------|-------------------------|
|-------------------------|-------------------------|-------------------------|
  A           D             A     [n.c.]
  :     .     .     .       :     .     .     .       :     .     .     .
|-------------------------|-------------------------|-------------------------|
|----------/5-------------|-------------------------|-------------------------|
|-2--------/6-6---------2-|-2-----------------------|-------------------------|
|-2-----------7---2--h4---|-------------------------|-------------------------|
|-------------------------|-------------------------|-------------------------|
|-------------------------|-------------------------|-------------------------|
                                  Im - por -  tant    words . . .
          A                 D
Important words that mean a lot
     A6 F#m D E      A    D   A
They say      I love you.

Important words That's all I've got
They say, say I love you.
    D
The days, the nights, the hours
   A
We spent makin' plans
     D
Have made both of us feel the same
E7       Eb7        E7
Since we first held hands.
Important words that say I love you
They say I do.

[Instr verse]
[instr. bridge, with "oo-wah, oo-wah, oo-wah" (etc.) and harp]
[Important words] that say I love you
They say I do.