Nashville Skyline Rag

Written by Bob Dylan
Released on Nashville Skyline (1969)
Tabbed by Eyolf Østrem


[fade in] C  . | . . . . | C(7) . . . | . . . . |

Harp verse:

| C  . F .G| C . F .G| C  . F .G| G  /a-b C  . |
| C  . F .G| C . F .G| C  . F .G| G  /a-b C  . |
| D7 . . . | G . . . | E7 . . . | A7 .    nc . |
| C  . F .G| C . F .G| C  . F .G| G  /a-b C  . |

Steel guitar verse

Dobro verse

Ac. guitar verse

Piano verse

Harp solo:

| C  . F . | C . F . | C  . F . | G  /a-b C  . |
 Steel guitar                  Dobro
  :   .   .   .     :   .   .   .     :   .   .   .     :   .   .   .
|---------8-------|-----------------|-----5---3-------|-----------------|
|-----8-----------|-8-----------3---|/5---------5-3---|-----------------|
|-7/9---9---9-7-9-|---9\7---5-------|-----------------|-----5-7-5-------|
|-----------------|-----------------|---------------5-|-5-7-------------|
|-----------------|-----------------|-----------------|-----------------|
|-----------------|-----------------|-----------------|-----------------|
  Ac. guitar                          Piano
  :   .   .   .     :   .   .   .     :   .   .   .     :   .   .   .
|-----------------|-----------------|---0-------------|-----------------|
|-1-3-1-0---------|-----------------|-4---4-3-1-------|-1---------------|
|---------2-0-----|-0---------------|-----------2-0-2-|---0-------------|
|-------------0-2-|---2-0-----------|-----------------|-----1-0---------|
|-----------------|-------2-3-------|-----------------|---------3-------|
|-----------------|-----------------|-----------------|-----------------|
C7