Billy (Main Title Theme)

By Bob Dylan
Released on the soundtrack album Pat Garret & Billy The Kid (1973)
Tabbed by Eyolf Østrem


The guitar figure in the intro runs through the whole song.


Intro:

    >                 >                 >
    G                 G C/g             C G
    :   .   .   .     :   .   .   .     :   .   .   .     :   .   .   .
||--3-3---3-3---3---|-3-----3-----3---|-3-3---3-----3---|-3-3-3-3-----3---||
||*-0-0---0-0---0---|-0h1---1-----1---|-1-0---0-----0---|-0-0-0-0-----0--*||
||--0-0---0-0---0---|-0-----0-----0---|-0-0---0-----0---|-0-0-0-0-----0---||
||--0-0---0-0---0---|-0h2---2-----2---|-2-0---0-----0---|-0-0-0-0-----0---||
||*-2-2---2-2---2---|-2---------------|---2---2-----2---|-2-2-2-2-----2--*||
||--3-3---3-3---3---|-3---------------|-3-3---3-----3---|-3-3-3-3-----3---||
  G                 G C/g             C G
  :   .   .   .     :   .   .   .     :   .   .   .     :   .   .   .
|-----------------|-----------------|-----------------|--------------------|
|-----------------|-----------------|-----------------|---------------1p0--|
|-------0---------|-------------2---|-2--h4-4---------|------------------2p|
|-----------------|-----------------|-----------------|--------------------|
|-----------------|-----------------|-----------------|--------------------|
|-----------------|-----------------|-----------------|--------------------|
  G                 G C/g             C G
  :   .   .   .     :   .   .   .     :   .   .   .     :   .   .   .
|-----------------|-----------------|-----------------|-----------------|
|-----------------|-----------------|-----------------|-----------------|
|-0-----0---------|-------------0---|-0---------------|-------------2---|
|-------------2---|-0---------2-----|-----------------|-----------------|
|-----------------|-----------------|-----------------|-----------------|
|-----------------|-----------------|-----------------|-----------------|
  C/g                                     C G
  :   .   .   .     :       .   .   .     :   .   .   .     :   .   .   .
|-----------------|---------------------|-----------------|-----------------|
|-----------------|---------------------|-----------------|-----------------|
|-2h4---------2---|-2h4p2p0-------------|-----------------|-----------------|
|-----------------|-----------------2---|-2p0---0---------|-------------0---|
|-----------------|---------------------|-----------------|-----------------|
|-----------------|---------------------|-----------------|-----------------|
  G C/g                               C G
  :   .   .   .     :   .   .   .     :   .   .   .     :   .   .   .
|-----------------|-----------------|-----------------|-----------------||
|-----------------|-----------------|-----------------|-------------3---||
|-------------0---|-0h2---0---------|-----------------|-------2/4-------||
|-0h2-------------|-------------2---|-2p0-------------|-----------------||
|-----------------|-----------------|-----------------|-----------------||
|-----------------|-----------------|-----------------|-----------------||
  G                 G C/g             C G
  :   .   .   .     :   .   .   .     :   .   .   .     :   .   .   .
|-----0-----0-----|-----------------|-----0-----------|-3-----5-----7---|
|-3-----3-----3---|-----------------|-3-----3---------|-----------------|
|-----------------|-----------------|-----------------|-----------------|
|-----------------|-----------------|-----------------|-----------------|
|-----------------|-----------------|-----------------|-----------------|
|-----------------|-----------------|-----------------|-----------------|
  G                   G C/g             C G
  :   .     .   .     :   .   .   .     :   .   .   .     :   .   .   .
|-------7p5p3---3---|-3---------------|-----------------|-----------------|
|-------------------|-------------5---|-5---3-3---------|-------0---------|
|-------------------|-----------------|-----------------|-------------2---|
|-------------------|-----------------|-----------------|-----------------|
|-------------------|-----------------|-----------------|-----------------|
|-------------------|-----------------|-----------------|-----------------|
  D                              (C)    G
  :     .   .   .     :   .   .   .     :     .   .   .     :   .   .   .
|-------------------|-----------------|-------------------|-----------------|
|-------------------|-----------------|-------------------|-----------------|
|-0h2p0-------------|-2---------------|-4p2p0---0---------|-----------2h4---|
|-------------------|-----------------|-------------------|-----------------|
|-------------------|-----------------|-------------------|-----------------|
|-------------------|-----------------|-------------------|-----------------|
  G                 G C/g               C G
  :   .   .   .     :     .   .   .     :   .   .   .     :   .   .   .
|-----------------|-------------------|-----------------|-----------------||
|-----------------|-------------------|-----------------|-----------------||
|-2--p0-0---------|-------------------|-----------------|-----------------||
|-------------2---|-0h2p0-------------|-2p0---0---------|-----------------||
|-----------------|-------------------|-----------------|-----------------||
|-----------------|-------------------|-----------------|-----------------||
  G                 G C/g             C G
  :   .   .   .     :   .   .   .     :   .   .   .     :   .   .   .
|-----------------|-----------------|-----------------|-----------------|
|-----------------|-----------------|-----------------|---------3-------|
|-------------0---|-0-----------2---|-2h4---4---------|-------4---------|
|-------0h2-------|-----------------|-----------------|-----------------|
|-----------------|-----------------|-----------------|-----------------|
|-----------------|-----------------|-----------------|-----------------|
  G                 G C/g             C G
  :   .   .   .     :   .   .   .     :   .   .   .     :   .   .   .
|-----------------|-----------------|------------(0)--|-------0---------|
|-----------------|-----------------|-------3---------|-3-----------3---|
|-4---------------|-2p0---0-----2---|-2h4-------------|-----------------|
|-----------------|-----------------|-----------------|-----------------|
|-----------------|-----------------|-----------------|-----------------|
|-----------------------------------|-----------------|-----------------|
  D                 C                   G                 G C/g G
  :   .   .   .     :     .   .   .     :   .   .   .     :   .   .   .
|-----------------|-------------------|-----------------|-----------------||
|-3-----------3---|-1h3p1---0---------|-----------------|-----------------||
|-----------------|-------------2---0-|-0-----0---------|-----------------||
|-----------------|-------------------|-----------------|-----------------||
|-----------------|-------------------|-----------------|-----------------||
|-----------------|-------------------|-----------------|-----------------||
  G                 G C/g             C G
  :   .   .   .     :   .   .   .     :   .   .   .     :   .   .   .
|-7---7-7---7---7-|-7---7-----7---5-|-5-3---3---------|-----------------|
|-----------------|-----------------|-----------------|-----------------|
|-7---7-7---7---7-|-7---7-----7---5-|-5-4---4---------|-----------------|
|-----------------|-----------------|-----------------|-----------------|
|-----------------|-----------------|-----------------|-----------------|
|-----------------|-----------------|-----------------|-----------------|
  G                 G C/g             C G
  :   .   .   .     :   .   .   .     :   .   .   .     :   .   .   .
|-7---7-7---7-----|-------8---8---8-|-8\7-7-7---------|-------------7---|
|-----------------|-----------------|-----------------|-----------------|
|-7---7-7---7---7-|-7/9-------9---9-|-9\7-7-7---------|-------------7---|
|-----------------|-----------------|-----------------|-----------------|
|-----------------|-----------------|-----------------|-----------------|
|-----------------|-----------------|-----------------|-----------------|
  C/g                                    G
  :   .   .   .     :    .     .   .     :   .   .   .     :   .   .   .
|-------8---8---8-|-8-(/10)-10-10\-8---|-8\7-7-7---------|-------------7---|
|-----------------|--------------------|-----------------|-----------------|
|-7/9-------9---9-|-9-(/11)-11-11\-9---|-9\7-7-7---------|-------------7---|
|-----------------|--------------------|-----------------|-----------------|
|-----------------|--------------------|-----------------|-----------------|
|-----------------|--------------------|-----------------|-----------------|
  D                 C                 G
  :   .   .   .     :   .   .   .     :   .   .   .     :   .   .   .
|-7\5---5-----7---|-----8-8-----8---|-8\7---7---5-3---|-----------------||
|-----------------|-----------------|-----------------|-----------------||
|-7\5---5-----7---|-7/9---9-----9---|-9\7---7---5-4---|-----------------||
|-----------------|-----------------|-----------------|-----------------||
|-----------------|-----------------|-----------------|-----------------||
|-----------------|-----------------|-----------------|-----------------||
  G                 G C/g             C G
  :   .   .   .     :   .   .   .     :   .   .   .     :   .   .   .
|-----------------|-----------------|-------7---------|-----------------|
|----8------------|-------------8---|----8------8-----|-----------------|
|---7-------------|-7---------------|-7-----------7---|-----------------|
|-----------------|-----------------|-----------------|-----------------|
|-----------------|-----------------|-----------------|-----------------|
|-----------------|-----------------|-----------------|-----------------|
  G                 G C/g             C G
  :   .   .   .     :   .   .   .     :   .   .   .     :   .    .    .
|-------------7---|-7h8---------8---|-8p7---7---------|----------10---10---|
|----8------------|-----------------|-----------------|--------------------|
|---7-------------|-----------------|-----------------|-------12------12---|
|-----------------|-----------------|-----------------|--------------------|
|-----------------|-----------------|-----------------|--------------------|
|-----------------|-----------------|-----------------|--------------------|
  C                                   G
  :   .   .   .     :   .   .   .     :   .   .   .     :   .   .   .
|-10----------8---|-8-----8-----8---|-8\--7-7\--5---3-|---5---5-----7---|
|-----------------|-----------------|-----------------|-----------------|
|-12----------9---|-9-----9-----9---|-9\--7-7\--5---4-|---5---5-----7---|
|-----------------|-----------------|-----------------|-----------------|
|-----------------|-----------------|-----------------|-----------------|
|-----------------|-----------------|-----------------|-----------------|
  D                 C                 G
  :   .   .   .     :   .   .   .     :   .   .   .     :   .   .   .
|-7\5---5-----7---|-----8-8-----8---|-7\5---3---------|-----------------||
|-----------------|-----------------|-----------------|-----------------||
|-7\5---5-----7---|-7/9---9-----9---|-7\5---4---------|-----------------||
|-----------------|-----------------|-----------------|-----------------||
|-----------------|-----------------|-----------------|-----------------||
|-----------------|-----------------|-----------------|-----------------||
  G                 G C/g             C G
  :   .   .   .     :   .   .   .     :   .   .   .     :   .   .   .
|-7---7-7---7---7-|-7---7-----------|-7\5---3---------|-------------5---|
|-----------------|-----------------|-----------------|-----------------|
|-7---7-7---7---7-|-7---7-----------|-7\5---4---------|-------------5---|
|-----------------|-----------------|-----------------|-----------------|
|-----------------|-----------------|-----------------|-----------------|
|-----------------|-----------------|-----------------|-----------------|
  G                 G C/g             C G
  :   .   .   .     :   .   .   .     :   .   .   .     :   .   .   .
|-------7---7---7-|-7-----------8---|-8\7---7-----5---|-----3-----------|
|-----------------|-----------------|-----------------|-----------------|
|-5/7-------7---7-|-7-----7/9---9---|-9\7---7-----5---|-4---------------|
|-----------------|-----------------|-----------------|-----------------|
|-----------------|-----------------|-----------------|-----------------|
|-----------------|-----------------|-----------------|-----------------|
  C                                   G
  :   .   .   .     :   .   .   .     :   .   .   .     :   .   .   .
|-----3-----3-----|/8-----8-----8---|-8\--7-7---5---3-|---5---5/7---7---|
|-----------------|-----------------|-----------------|-----------------|
|-5-----5-------(5|/9)--9-------9---|-9\--7-7---5---4-|---5---5/7---7---|
|-----------------|-----------------|-----------------|-----------------|
|-----------------|-----------------|-----------------|-----------------|
|-----------------|-----------------|-----------------|-----------------|
  D                 C                 G
  :   .   .   .     :   .   .   .     :   .   .   .     :   .   .   .
|-7\--5-5-----7---|-8---8-7---5---5-|-5\--3-3---------|-----------------||
|-----------------|-----------------|-----------------|-----------------||
|-7\--5-5-----7---|-9---9-7---5---5-|-5\--4-4---------|-----------------||
|-----------------|-----------------|-----------------|-----------------||
|-----------------|-----------------|-----------------|-----------------||
|-----------------|-----------------|-----------------|-----------------||
  G                 G C/g             C G
  :   .   .   .     :   .   .   .     :   .   .   .     :   .   .   .
|-----------------|-----------------|-----------------|-----------------|
|-----------------|-----------------|-----------------|-----------------|
|-----------------|-----------------|-----------------|-----7-------7---|
|-----------------|-----------------|-----5-5-----7---|-7/9-------------|
|-------10--------|-3---5-----------|-5---------------|-----------------|
|-3---3/----------|-----------------|-----------------|-----------------|
  G                     G C/g               C G
  :   .   .   .         :     .   .   .     :   .   .   .     :        .   .   .
|-----------------|-----------------------|-------------10--|-10-------------------|
|-------8---------|(10)b12r10---8---------|-8-----------10--|-10b12r10---8-----8---|
|-7/9-------------|-------------------9---|-----------------|----------------9-----|
|-----------------|-----------------------|-----------------|----------------------|
|-----------------|-----------------------|-----------------|----------------------|
|-----------------|-----------------------|-----------------|----------------------|
  C                                   G
  :   .   .   .     :   .   .   .     :   .   .   .     :   .   .   .
|-----------------|---8-----8---8---|-8\--7-7---5---3-|---5---5/7---7---|
|-8---------------|-----------------|-----------------|-----------------|
|-------------7---|-9-----9-----9---|-9\--7-7---5---4-|---5---5/7---7---|
|-----------------|-----------------|-----------------|-----------------|
|-----------------|-----------------|-----------------|-----------------|
|-----------------|-----------------|-----------------|-----------------|
  D                 C                 G
  :   .   .   .     :   .   .   .     :   .   .   .     :   .   .   .
|-7\5-5-5---7---8-|---8---8-7---5---|-5\3---3-3-------|-----------------||
|-----------------|-----------------|-----------------|------(3)--------||
|-7\5-5-5---7---9-|---9---9-7---5---|-5\4---4-4-------|------(4)--------||
|-----------------|-----------------|-----------------|-----------------||
|-----------------|-----------------|-----------------|-----------------||
|-----------------|-----------------|-----------------|-----------------||
  G                 G C/g              C G
  :   .    .   .    :   .    .   .     :   .    .   .     :   .    .   .
|-----7-10--------|-----7-10---------|-----7-10---------|-----7-10---------|
|----8------------|----8-------------|----8-------------|----8-------------|
|---7-------------|---7--------------|---7--------------|---7--------------|
|-----------------|------------------|------------------|------------------|
|-----------------|------------------|------------------|------------------|
|-----------------|------------------|------------------|------------------|
  G                 G C/g              C G
  :   .    .   .    :   .    .   .     :   .    .   .     :   .    .   .
|-----7-10--------|-----7-10---------|-----7-10---------|-----7-10---------|
|----8------------|----8-------------|----8-------------|----8-------------|
|---7-------------|---7--------------|---7--------------|---7--------------|
|-----------------|------------------|------------------|------------------|
|-----------------|------------------|------------------|------------------|
|-----------------|------------------|------------------|------------------|
  C                                       G
  :   .   .   .     :     .     .   .     :   .   .   .     :   .   .   .
|-----8-8-----10--|-10/12-12-10---8---8-|-8\--7-7\--5---3-|---5---5/7---7---|
|-----------------|---------------------|-----------------|-----------------|
|---9---9-----10--|-10/12-12-10---9---9-|-9\--7-7\--5---4-|---5---5/7---7---|
|-----------------|---------------------|-----------------|-----------------|
|-----------------|---------------------|-----------------|-----------------|
|-----------------|---------------------|-----------------|-----------------|
  D                 C                 G
  :   .   .   .     :   .   .   .     :   .   .   .     :   .   .   .
|-5---5-5---7---8-|-8---8-7---5---5-|-5\--3-3-----3---|-3---------------||
|-----------------|-----------------|-----------------|-----------------||
|-5---5-5---7---9-|-9---9-7---5---5-|-5\--4-4-----4---|-4---------------||
|-----------------|-----------------|-----------------|-----------------||
|-----------------|-----------------|-----------------|-----------------||
|-----------------|-----------------|-----------------|-----------------||
  G                 G C/g              C G
  :   .    .   .    :   .    .   .     :   .    .   .     :   .    .   .
|-----7-10--------|-----7-10---------|-----7-10---------|-----7-10---------|
|----8------------|----8-------------|----8---------8---|----8-------------|
|---7-------------|---7--------------|---7--------------|-7-7--------------|
|-----------------|------------------|------------------|------------------|
|-----------------|------------------|------------------|------------------|
|-----------------|------------------|------------------|------------------|
  G                   G C/g             C G
  :   .    .   .      :   .   .   .     :   .   .   .     :   .   .   .
|-----7-10---------|----8-----8---8---|-8\--7-7---5---3-|---5---7---------|
|----8-------------|------------------|-----------------|-----------------|
|---7--------------|7/9-----9-----9---|-9\--7-7---5---4-|---5---7-----7---|
|------------------|------------------|-----------------|-----------------|
|------------------|------------------|-----------------|-----------------|
|------------------|------------------|-----------------|-----------------|
  C                                   G
  :   .   .   .     :   .   .   .     :   .   .   .     :    .   .   .
|---8-----8-------|-------8-----8---|-8---7-7-------7-|--/10-10--10--10---|
|-------------8---|---8-------------|-----------------|-------------------|
|/9-----9-------9-|-------------9---|-9---7-7-------7-|--/12-12--12--12---|
|-----------------|-----------------|-----------------|-------------------|
|-----------------|-----------------|-----------------|-------------------|
|-----------------|-----------------|-----------------|-------------------|
  D                    C                 G
  :    .    .    .     :   .   .   .     :   .   .   .     :   .   .   .
|---10------10-----8-|-----8---8---8---|\7---5-3---3---3-|---5--/7---7---7-||
|--------------------|-----------------|-----------------|-----------------||
|-11-----11------9---|---9-----9---9---|\7---5-4---4---4-|---5--/7---7---7-||
|--------------------|-----------------|-----------------|-----------------||
|--------------------|-----------------|-----------------|-----------------||
|--------------------|-----------------|-----------------|-----------------||
  G                 G C/g             C G
  :   .   .   .     :   .   .   .     :   .   .   .     :   .   .   .
|-7---7-7---7---7-|---7---7-7---7---|-7\--5-3---3---3-|---3---3---3-----|
|-----------------|-----------------|-----------------|-----------------|
|-7---7-7---7---7-|---7---7-7---7---|-7\--5-4---4---4-|---4---4---4-----|
|-----------------|-----------------|-----------------|-----------------|
|-----------------|-----------------|-----------------|-----------------|
|-----------------|-----------------|-----------------|-----------------|
  G                  G C/g             C G
  :   .    .   .     :   .   .   .     :   .   .   .     :   .   .   .
|-----7-10-----7---|-----8-8-----8---|-8\--7-7---5---3-|---5---------7---|
|----8-------------|-----------------|-----------------|-----------------|
|---7----------7---|--/9---9-----9---|-9\--7-7---5---4-|---5---5/7-------|
|------------------|-----------------|-----------------|-----------------|
|------------------|-----------------|-----------------|-----------------|
|------------------|-----------------|-----------------|-----------------|
   C                                    G
   :   .   .   .     :   .    .   .     :   .    .    .       :   .    .   .
|------------------|-----7-10---------|-------10-10---10-10-|-------10-10--10--|
|------8-----8-----|----8---------8---|---------------------|------------------|
|7/9---------------|---7--------------|-------12-12---12-12-|-------12-12--12--|
|------------------|------------------|---------------------|------------------|
|------------------|------------------|---------------------|------------------|
|------------------|------------------|---------------------|------------------|
  D                    C                 G
  :    .    .    .     :   .   .   .     :   .   .   .     :   .   .   .
|---10------10-----8-|-----8---8---7---|-7\5---3---5-----|-----7-----------||
|--------------------|-----------------|-----------------|-----------------||
|-11-----11------9---|---9-----9---7---|-7\5---4---5---5-|/7---------------||
|--------------------|-----------------|-----------------|-----------------||
|--------------------|-----------------|-----------------|-----------------||
|--------------------|-----------------|-----------------|-----------------||
  G                 G C/g              C G
  :   .    .   .    :   .    .   .     :   .    .   .     :   .    .   .
|-----7-10--------|-----7-10---------|-----7-10---------|-----7-10---------|
|----8------------|----8-------------|----8-------------|----8-------------|
|---7-------------|---7--------------|---7--------------|---7--------------|
|-----------------|------------------|------------------|------------------|
|-----------------|------------------|------------------|------------------|
|-----------------|------------------|------------------|------------------|
  G                  G C/g             C G
  :   .    .   .     :   .   .   .     :   .   .   .     :   .   .   .
|-----7-10---------|-----8-8-----8---|-8---7-7---5---3-|---5---------7---|
|----8-------------|-----------------|-----------------------------------|
|---7----------7---|---9---9-----9---|-9---7-7---5---4-|---5---5/7-------|
|------------------|-----------------|-----------------------------------|
|------------------|-----------------|-----------------------------------|
|------------------|-----------------|-----------------------------------|
  C                                          G
  :   .   .    .      :    .     .    .      :    .    .    .      :    .   .    .
|-------8---10---10-|/12---12-12---12---10-|---10---10---12-12---|-12---10----10-----|
|-----8-------------|----------------------|---------------------|-------------------|
|-9-----9---10---10-|/12---12-12---12---12-|---12---12------12---|-12---12----12--11-|
|----------------------------------------------------------------|-------------------|
|----------------------------------------------------------------|-------------------|
|----------------------------------------------------------------|-------------------|
  D                    C                 G
  :   .    .    .      :   .   .   .     :   .   .   .     :   .   .   .
|-10----10------10---|-8-----8---8-----|-7\5---3---3---3-|---3---3-------2/||
|--------------------|-----------------|-----------------|-----------------||
|-----11-----11----9-|-----9-----9-----|-7\5---4---4---4-|---4---4-------2/||
|--------------------|-----------------|-----------------|-----------------||
|--------------------|-----------------|-----------------|-----------------||
|--------------------|-----------------|-----------------|-----------------||
  G                 G C/g             G
  :   .   .   .     :   .   .   .     :   .   .   .     :   .   .   .
|/3-----3---3---3-|-3-----3-----3---|-3---3-3---3---2/|-3---3-3---3---3-|-3--
|-----------------|-----------------|-----------------|-----------------|----
|/4-----4---4---4-|-4h5---5-----5---|-4---4-4---4---2/|-4---4-4---4---4-|-4-- fade
|-----------------|-----------------|-----------------|-----------------|---- out
|-----------------|-----------------|-----------------|-----------------|----
|-----------------|-----------------|-----------------|-----------------|----