Suze (The Cough Song)

One of Dylan's attempts at an instrumental.
Recorded Oct 24, 1963 and released on The Bootleg Series 1-3 (1991)
Tabbed by Eyolf Østrem

The trick in this song is to let the chords begin on the last 8th note of the previous bar, and to emphasise this note wherever it figures as a melody tone, such as in the first measure.

Many of the things that are written in as hammer-ons or pull-offs in the tab, are really just the almost inevitable result of changing chords at breakneck speed. Don’t bother too much about it; if you are able to play it at the correct speed, the effects will come out in any case.

Capo 4th fret

  C             
  :   .   .   .    
                >
|---------------0-|
|-1---------------|
|-----------0-----|
|-----2-------2---|
|-3---------------|
|---------3-------|
   C                                   F                 C
                                                                       >
   :   .   .   .     :   .   .   .     :   .   .   .     :   .   .   .      
||-----------------|-0---------------|-----------------|---------------0-|
||-----1-----------|-------1---------|-------1---------|-----1-----------|
||-----------------|-----------------|---0h2-----0h2---|-----------0-----|
||-----2-------2---|-----2-------2---|-----3-------3---|-----2-------2---|
||-3---------------|-3---------------|-----------------|-3---------------|
||---------3-------|---------3-------|-1-------1-------|---------3-------|
                                      D7/f#             G             C
                >                                                     >
  :   .   .   .     :   .   .   .     :   .   .   .     :   .   .   .    
|---------------0-|-----------------|-----------------|---------------0-|
|-----1-----------|-----1-----------|-------1---------|-----0-----------|
|-----------0-----|-----------------|---0h2-----2-----|-----------0-----|
|-----2-------2---|-----2-------2---|-----0-------0---|-----0-------0---|
|-3---------------|-3---------------|-----------------|-----------------|
|---------3-------|---------3-------|-2-------2-------|-3-------3-------|
  C                                   F                 D7/f#         C/g
                >
  :   .   .   .     :   .   .   .     :   .   .   .     :   .   .   .    
|---------------0-|-----------------|-----------------|-----------------|
|-----1-----------|-----1-----------|-------1---------|-----1---------1-|
|-----------0-----|-----------------|---0h2-----2-----|-----------0-----|
|-----2-------2---|-----2-------2---|-----3-------3---|-----0-------0---|
|-3---------------|-3---------------|-----------------|-----------------|
|---------3-------|---------3-------|-1-------1-------|-2-------2-------|
  C/g     G         Am      /g        F       G        
                                                    >
  :   .   .   .     :   .   .   .     :   .   .   .     
|-----------------|-----------------|---------------0-||
|-------0---------|---1-----------1-|-------1p0-------|| The pull-off is
|---0-------0---0-|h2---------0-----|---2-------0-----|| just the inevi-
|-----2-------0---|-----2-------2---|-----3-------0---|| table consequence
|-----------------|-0---------------|-----------------|| of the chord change
|-3-------3-------|---------3-------|-1-------3-------||
   C                                   G                 C             
   :   .   .   .     :   .   .   .     :   .   .   .     :   .   .   .      
||---------------0-|-----------------|-------1---------|---------------0-|
||-----1-----------|-----1-----------|---------------1-|-----1-----------|
||-----------0-----|-----------------|---0-------0-----|-----------0-----|
||-----2-------2---|-----2-------2---|-----0-------0---|-----2-------2---|
||-3---------------|-3---------------|-----------------|-3---------------|
||---------3-------|---------3-------|-3-------3-------|---------3-------|
                                      D7/f#             G                
  :   .   .   .     :   .   .   .     :   .   .   .     :   .   .   .    
|---------------0-|-----------------|-----------------|---------------0-|
|----(1)----------|-----1-----------|-------1---------|-----0-----------|
|-----------0-----|-----------------|---0h2-----2-----|-----------0-----|
|-----2-------2---|-----2-------2---|-----0-------0---|-----0-------0---|
|-3---------------|-3---------------|-----------------|-----------------|
|---------3-------|---------3-------|-2-------2-------|-3-------3-------|
  C                                   F                 D7/f#            
  :   .   .   .     :   .   .   .     :   .   .   .     :   .   .   .    
|---------------0-|-----------------|-----------------|-----------------|
|-----1-----------|-----1-----------|-------1---------|-----1---------1-|
|-----------0-----|-------------0---|---0h2-----2-----|-----------0-----|
|-----2-------2---|-----2-------2---|-----3-------3---|-----0-------0(2)|
|-3---------------|-3---------------|-----------------|-----------------|
|---------3-------|---------3-------|-1-------1-------|-2-------2-------|
  C/g     G         Am      /g        F       G         C
  :   .   .   .     :   .   .   .     :   .   .   .     :   .   .   .     
|-----------------|-----------------|-----------------|-----------------||
|-------0-------0-|h1-1-------------|-------1p0-----1-|-----1---------0-||
|---0-------0-----|-----------------|---2-------0-----|-----------0-----||
|-----2-------0---|-----2-------2---|-----3-------0---|-----2-------2---||
|-----------------|-0---------------|-----------------|-3---------------||
|-3-------3-------|---------3-------|-1-------3-------|---------3-------||
  G       G/e        G7/f              C                                  
  :   .   .    .     :   .   .   .     :   .   .   .     :   .   .   .   
|------------------|---------------0-|---------------0-|-----------------|
|----------------0-|-----------------|-----1-----------|-----1-----------|
|---0-------0------|---0-------0-----|-----------0-----|-----------0-----|
|-----0-------h2---|-----3-(p0)--0---|-----2-------2---|-----2-------2---|
|------------------|-----------------|-3---------------|-3---------------|
|-3-------3--------|-3-------3-------|---------3-------|---------3-------|
  G       G/e       G7/f                C                                  
  :   .   .   .     :   .   .   .      :   .   .   .     :   .   .   .   
|-----------------|------------------|---------------0-|-----------------|
|-----------------|----------------1-|-----1-----------|-----1---------0-|
|---0-------------|---0--------------|-----------0-----|-----------0-----|
|-----0--h2---2h3-|-----2-------2p0--|-----2-------2---|-----2-------2p0-|
|-----------------|------------------|-3---------------|-3---------------|
|-3-------3-------|-3-------3--------|---------3-------|---------3-------|
  A                                   D7/f#
  :   .   .   .     :   .   .   .     :   .   .   .     :   .   .   .    
|-----------------|-----------------|-----------------|-----------------|
(h2)--------------|-----------------|-------1-------1-|-------1-------1-|
|---2-------2-----|---2-------------|---2-------2-----|---2-------2-----|
|-----2-------2---|-----2---2---2---|-----0-------0---|-----0-------0---|
|-0-------0-------|-0---------------|-----------------|-----------------|
|-----------------|(0---------------|-2-------2-------|-2-------2-------|
  F                                   G7
  :   .   .   .     :   .   .   .     :   .   .   .     :   .   .   .    
|-----------------|-----------------|---------------1-|-----1---------3-|
|-------1-------1-|-------1-------0-|-----0-----------|-----------------|
|---2-------2-----|---2-------2-----|-----------0-----|-----------0-----|
|-----3-------3---|-----3-------3---|-----0-------0---|-----0-------0---|
|-----------------|-----------------|-----------------|-----------------|
|-1-------1-------|-1-------1-------|-3-------3-------|-3-------3-------|
  :   .   .   .     :   .   .   .      :   
|-----3---------3-|-----------------||-----
|-----------------|---------------1-||-----   etc. from
|-----------0-----|-----------0-----||-----   the beginning
|-----0-------0---|-----0-------0h2-||-----
|-----------------|-----------------||-3---
|-3-------3-------|-3-------3-------||-----