You're Gonna Quit Me, Baby

Trad.
Released by Bob Dylan on Good As I Been To You (1992)
Tabbed by Eyolf Østrem

     C   F   C   F     C     C7          F                F         C7
     :   .   .   .     :   .   .   .     :   .   .   .    :   .   .   .
---|-----------------|-----------------|-1--------------|-0---------------
---|---------1-------|-1-----1---------|-1--------------|-1-------1-------
-0-|-0---2---0---2---|-0-----3---------|-2--------------|-0---------3-----
-2-|-2---3---2---3---|-2-----2---------|-3--------------|-2---------------
-3-|-3---3-------3---|-3-----3---------|-3--------------|-3---------------
---|-----------------|-----------------|-1--------------|-----------------
  F       D7/f#     C/g   A           D7      G7        C
  :   .   .   .     :   .   .   .     :   .   .   .     :   .   .   .
|-1-------2-------|-0---------------|-2---------------|-0---------------
|-1-------1-------|-1-----2---------|-1-------0-------|-1---------------
|-2-------2-------|-0-----2---------|-2-------0-------|-0---------------
|-3-------0-------|-2-----2---------|-0-------3-------|-2---------------
|-3-------0-------|-3-----0---------|-0-------2-------|-3---------------
|-1-------2-------|-3-3/5-----------|---------3-------|-----------------
C                       C7
You're gonna quit me, baby,
F                 C
Good as I been to you, Lawd, Lawd.
F         D/f#    C          A
Good as I been to you, Lawd, Lawd.
D7        G7      C
Good as I been to you.

Give you my money, honey,
Buy you shoes and clothes, Lawd, Lawd.

You're gonna quit me, baby,
Put me outta doors, Lawd, Lawd.
[interlude, more or less like the intro]
Six months on the chain gang,
Believe me, it ain't no fun, Lawd, Lawd.

Day you quit me, baby,
That's the day you die, Lawd, Lawd.

Jailhouse ain't no plaything,
Believe me, ain't no lie, Lawd, Lawd.

Day you quit me, baby,
That's the day you die, Lawd, Lawd.

[one verse instrumental, then:]
     C         "D7-9"  G7      C
     :     .     .     .       :
---|-------------------------|-----------0------------||
---|-1-----5-----4-----3-----|-1---1-----1------------||
---|-----0-----0-----0-------|(0)----0---0------------||
---|----/5-----4-----3-----2-|(2)--------2------------||
-3-|-------------------------|(3)---------------------||
---|-------------------------|------------------------||