Beyond here lies nothin’

Music by Bob Dylan, lyrics by Bob Dylan and Robert Hunter
Released on Together Through Life (2009)
Tabbed by Eyolf Østrem


Intro:
             Am
   .   .     :   .   .   .     :   .   .   .     :   .   .    .     :   .   .   .
---5-------|-5---------------|-----------------|------------------|-----------------|
---5-------|-5---------------|-----------------|--------(7)b8-----|-7---------------|
-----------|-----------------|-----------------|--------(7)b8-5---|-7---5-----------|
-----------|-----------------|-----------------|------------------|---------7---5---|
-----------|-----------------|-----------------|------------------|-----------------|
-----------|-----------------|-----------------|------------------|-----------------|
  :   .   .   .     :   .   .   .     :   .   .   .     :     .   .   .
|-----------------|-----------------|-----5-------5---|-----------------|
|-----------------|-----------------|-----5-------5---|-7b8r7-5---7-----|
|-----------------|-----------------|-----------------|-7b8r7-5---7-----|
|-7---------------|-----------------|-----------------|-----------------|
|-----------------|-----------------|-----------------|-----------------|
|-----------------|-----------------|-----------------|-----------------|
  Dm7
  :   .   .    .      :   .   .   .     :   .   .   .     :   .   .   .
|------------------|------------------|-----------------|-5---------------|
|-7b8r7------------|------------------|-------------5---|-5---8---5-------|
|-7b8r7---5--------|------------------|---------5-7-5---|-----7---5---7---|
|-------------h7---|------7--h7---7---|h7---7---7-------|-------------7---|
|------------------|------------------|-----------------|-----------------|
|------------------|------------------|-----------------|-----------------|
  Am
  :   .   .   .     :   .   .   .     :   .   .   .     :   .   .   .
|-----------------|-----------------|-----8---8---8---|---------5-------|
|-----------------|-----------------|-----8---8---8---|---------5-------|
|-----------------|-----------------|-----------------|-----------------|
|-7---------------|-----------------|-----------------|-----------------|
|-----------------|-----------------|-----------------|-----------------|
|-----------------|-----------------|-----------------|-----------------|
  E                                   Dm7
  :   .   .   .     :   .    .    .   :     .   .   .     :   .   .   .
|-5---7-----------|-----------------|-------------------|-----------------|
|-5---------------|-----------------|-7p8r7-5-----------|-5---------------|
|-----7---5-------|-7---b8r7-5------|-7p8r7-5-----------|-5-------5---7---|
|-----------------|-----------------|---------------7---|-----7-----------|
|-----------------|-----------------|-------------------|-----------------|
|-----------------|-----------------|-------------------|-----------------|
  Am
  :   .   .   .     :   .   .   .     :   .   .   .     :   .   .   .
|-----------------|-----------------|-----------------|-----------------|
|-----------------|-----------------|-----------------|-----------------|
|-5---------------|-----5---5-------|-----------------|-----------------|
|-----7-------7---|-7-----------7---|-7---------------|-----------------|
|-----------------|-----------------|-----------------|-----------------|
|-----------------|-----------------|-----------------|-----------------|
Am
                           Am
Oh well, I love you pretty baby.

You're the only love I've ever known.
                         Dm
Just as long as you stay with me,
                      Am
The whole world is my throne.
                 E         /d# Dm7
Beyond here lies nothin',
                        Am
Nothin' we can call our own.
Well, I'm movin' after midnight.
Down boulevards of broken cars.
Don't know what I'd do without it,
Without this love that we call ours.
Beyond here lies nothin',
Nothin' but the moon and the stars
Down every street there's a window,
And every window's made of glass.
We'll keep on lovin', pretty baby,
For as long as love will last.
Beyond here lies nothin'
but the mountains of the past
jWell my ship is in the harbor,
And the sails are spread.
Listen to me pretty baby,
Lay your hand upon my head.
Beyond here lies nothin',
Nothin’ done and nothin’ said.