Seven Deadly Sins

Written by Bob Dylan and/or the rest of the Wilburys
Recorded in April 1990, during the second Traveling Wilburys sessions, and released on Traveling Wilburys Vol. 3
Tabbed by Eyolf Østrem

E6     022120
F#m    e.g. 244200 (w/thumb)
        
E
Seven --------------
      seven --------
            seven---
        
           A     F#m     D
... deadly sins
       E6            A       F#m   D
That's how the world begins
      E6                A    F#m   D
Watch out when you step in
    E6           A    F#m    D
For seven deadly sins
E6           A    F#m   D
Seven deadly sins
       E6             A     D
That's when the fun begins
A7
[seven deadly sins]
        
D                             E
[Sin number one] was when you left me
A                             A7
[Sin number two] you said goodbye
D                               B7
[Sin number three] was when you told me
  E      F#m   E7
a little white lie
        
 .     .     .       :
-------------------|---
-------------------|---   guitar lick
---1-2---------1-2-|---   at the end of
-------4-2---------|-0-   lines
-----------4-------|---
-------------------|---

 .     .     .       :
-------------------|---
-------------------|---   last time
---1-2-------------|---   before
-------4-2-0---2-4-|-2-   the bridge
-------------------|---
-------------------|---
        
Seven deadly sins
once it starts, it never ends
watch out around the bend
for seven deadly sins
        
[Sin number four] was when you looked my way
[Sin number five] was when you smiled
[Sin number six] was when you let me stay
sin number seven was when you touched me
and told me why
        
Seven deadly sins
That's how the world begins
Watch out when you step in
For seven deadly sins
        
A
Seven [Seven]
D
Seven [Seven]
A
Seven [Seven]
D             A
Seven [Deadly Sins]
        
--4-----5-----||
--6-----5-----||
--7-----6-----||
--------------||
--------------||
--------------||