Julia

Written by John Lennon
Released on the White Album
Tabbed by Eyolf Østrem


[intro]
   C                 Am7               Em
   :   .   .   .     :   .   .   .     :   .   .   .     :   .   .   .
||-3---------------|-3---------------|-3---------------|-3----------------|
||-----------1-----|-----------1-----|-----------0-----|-----------0------|
||-------0---------|-------2---------|-------0---------|-------0----------|
||-----2-------2---|-----2-------2---|-----2-------2---|-----2-------2----|
||-3---------------|-0---------------|-2---------------|-2----------------|
||---------3-------|---------0-------|---------0-------|---------0--------|
 1. Half of what I   say is  meaning - less
 6. When I cannot    sing my heart
  C                 Am7               Em                G
  :   .   .   .     :   .   .   .     :   .   .   .     :   .   .   .
|-3---------------|-3---------------|-3---------------|-3----------------||
|-----------1-----|-----------1-----|-----------0-----|-----------3------||
|-------0---------|-------2---------|-------0---------|-------0----------||
|-----2-------2---|-----2-------2---|-----2-------2---|-----0-------0----||
|-3---------------|-0---------------|-2---------------|-2----------------||
|---------3-------|---------0-------|---------0-------|---------3--------||
  But I   say it    just to reach you Ju     -                    li -
  I  can only   speak my mind         Ju     -                    li -
[verse]
    C                 Am7               Gm7               Gm9
    :   .   .   .     :   .   .   .     :   .   .   .     :   .   .   .
||--3---------------|-3---------------|-3---------------|-5----------------|
||*-----------1-----|-----------1-----|-----------3-----|-----------3------|
||--------0---------|-------2---------|-------3---------|-------3----------|
||------2-------2---|-----2-------2---|-----3-------3---|-----3-------3----|
||*-3---------------|-0---------------|-5---------------|-5----------------|
||----------3-------|---------0-------|---------3-------|---------3--------|
    a____
2.  Ju  -       li -  a                Ju  -       li  -  a
3.  Ju  -       li -  a                sea   -   shell    eyes
5.  Ju  -       li -  a                Ju  -       li  -  a
7.  Ju  -       li -  a                sleep   -   ing    sand
8.                                     hm          hm     hm
  A7                                  F9                Fm7
  :   .   .   .     :   .   .   .     :   .   .   .     :   .   .   .
|-5---------------|-5---------------|-3---------------|-4----------------|
|-----------5-----|-----------5-----|-----------1-----|-----------1------|
|-------6---------|-------6---------|-------2---------|-------1----------|
|-----5-------5---|-----5-------5---|-----1-------1---|-----1-------1----|
|-7---------------|-7---------------|-3---------------|-3----------------|
|---------5-------|---------5-------|---------1-------|---------1--------|
  O     -     cean  child             calls             me
  win   -     dy    smile             calls             me
  mor   -     ning  moon              touch             me
  si    -     lent  cloud             touch             me
                                      calls             me    (go to end)
  C                 Am7               Em                G
  :   .   .   .     :   .   .   .     :   .   .   .     :   .   .   .
|-3---------------|-3---------------|-3---------------|-3-----------------||
|-----------1-----|-----------1-----|-----------0-----|-----------3------*||
|-------0---------|-------2---------|-------0---------|-------0-----------||
|-----2-------2---|-----2-------2---|-----2-------2---|-----0-------0-----||
|-3---------------|-0---------------|-2---------------|-2----------------*||
|---------3-------|---------0-------|---------0-------|---------3---------||
  So  I   sing a    song of love      Ju  -                       li -
                                                Repeat after vv. 2 and 7
                                                continue after vv. 3 and 5
  :   .   .   .     :   .   .   .
|-3---------------|-3----------------||
|-----------1-----|-----------1------||
|-------0---------|-------0----------||
|-----2-------2---|-----2--------2---||
|-3---------------|-3----------------||  After v.
|---------3-------|---------3--------||
  a_____
[bridge]
        Bm                                  C
        :   .   .   .     :   .   .   .     :   .   .   .     :   .   .   .
      |-2---------------|-2---------------|-3---------------|-3---------------|
      |-----------3-----|-----------3-----|-----------1-----|-----------1-----|
      |-------4---------|-------4---------|-------0---------|-------0---------|
      |-----4-------4---|-----4-------4---|-----2-------2---|-----2-------2---|
      |-2---------------|-2---------------|-3---------------|-3---------------|
      |---------2-------|---------2-------|---------3-------|---------3-------|
      4.    her hair of   floating sky is   shimmering
        Am7               Am6               Em7               Em6
        :   .   .   .     :   .   .   .     :   .   .   .     :   .   .   .
      |-3---------------|-2---------------|-----------------|-----------------|
      |-----------1-----|-----------1-----|-3---------3-----|-2---------2-----|
      |-------2---------|-------2---------|-------0---------|-------0---------|
      |-----2-------2---|-----2-------2---|-----2-------2---|-----2-------2---|
      |-0---------------|-0---------------|-2---------------|-2---------------|
      |---------0-------|---------0-------|---------0-------|---------0-------|
        glimmering                          in         the sun
        Emadd#5           Em
        :   .   .   .     :   .   .   .
      |-----------------|-----------------||
      |-1---------1-----|-0---------0-----||
      |-------0---------|-------0---------||
      |-----2-------2---|-----2-------2---||
      |-2---------------|-2---------------||
      |---------0-------|---------0-------||
[last time:]
  C                 Am7               Em               C
  :   .   .   .     :   .   .   .     :   .   .     .   :   .   .   .
|-3---------------|-3---------------|-3--------------|--3---------------|
|-----------1-----|-----------1-----|-----------0----|------------1-----|
|-------0---------|-------2---------|-------0--------|--------0---------|
|-----2-------2---|-----2-------2---|-----2-------2--|------2-------0---|
|-3---------------|-0---------------|-2--------------|--3---------------|
|---------3-------|---------0-------|---------0------|----------3-------|
(8.) So  I  sing a song of love       Ju      -   li  - a
  Em                C                 Em                G
  :   .   .   .     :   .   .   .     :   .   .     .   :   .   .   .
|-3---------------|-3---------------|-3---------------|-3---------------|
|----------0------|----------1------|-----------0-----|-----------3-----|
|-------0---------|-------0---------|-------0---------|-------0---------|
|-----2-------2---|-----2-------0---|-----2-------2---|-----0-------0---|
|-2---------------|-3---------------|-2---------------|-2---------------|
|--------0--------|--------3--------|---------0-------|---------3-------|
  Ju  -       li  - a                 Ju        -                   li -
  Cmaj7
  :
|------0---------------|||
|-----0----------------|||
|----0-----------------|||
|---2------------------|||
|--3-------------------|||
|-3--------------------|||
  a____.