Kajsas Sang

Ole Paus
Tabbed by Eyolf Østrem

Tonene som er angitt i parentes i broen, anslås ikke, men er en slags hørbart akkordskifte, mer enn egentlige hammer-ons.

Midtpartiet bruker et fast fingerspillmønster: ikke standardmønsteret med alternerende tommelbass, men følgende:

  :   .   .   .
|-----------------|
|-3---------0-----|  p = tommel
|-------0-----0---|  i = pekefinger
|-----0---------0-|  m = langfinger
|-2---------------|  a = ringfinger
|---------3-------|
  a   i m   a m i
  p       p

Intro:

    A
    :   .   .   .     :   .   .   .    x4
||------------------|-0----------------||
||*-----2---3---2---|-2---2---3---2---*||
||------2---4---2---|-----2---2---2----||
||----2---2---2---2-|---2---2---2---2--||
||*-0---------------|-0---------------*||
||------------------|------------------||
                              Kaj-sas
 
    A                                   F#m7
    :   .   .   .     :   .   .   .     :   .   .   .     :   .   .   .
||------------------|-0---------------|-----------------|-2---------------|
||*-----2---3---2---|-2---2---3---2---|-----2---3---2---|-2---2---3---2---|
||------2---4---2---|-----2---2---2---|-----2---4---2---|-----2---2---2---|
||----2---2---2---2-|---2---2---2---2-|---2---2---2---2-|---2---2---2---2-|
||*-0---------------|-0---------------|-----------------|-----------------|
||------------------|-----------------|-2---------------|-2---------------|
[1] sang                      er  om    gjerder                   og  om
[2] sang                      er  om    taushet                   in- gen
 
  Bm7                                 Esus4             E(7)
  :   .   .   .     :   .   .   .     :   .   .   .     :   .   .   .
|-------------2---|-5---2-----------|-------0-----0---|-----0-----------|
|-----3---5-------|---------5---3---|-----0---0-----0-|---------3-------|
|-----2---2-------|---------2---2---|---2-------2-----|-1---------------|
|---4---4---4---4-|---4---4---4---4-|-----------------|-------------2---|
|-2---------------|-----------------|-----------------|-----------------|
|-----------------|-----------------|-0---------------|-----------------|
  mu- rer                   og  om    trær.                     In- gen
  ord  får bo             i Kaj-sas   munn                      hun har
  A                                   F#m7
  :   .   .   .     :   .   .   .     :   .   .   .     :   .   .   .
|-----------------|-0---------------|-----------------|-2---------------|
|-----2---3---2---|-2---2---3---2---|-----2---3---2---|-2---2---3---2---|
|-----2---4---2---|-----2---2---2---|-----2---4---2---|-----2---2---2---|
|---2---2---2---2-|---2---2---2---2-|---2---2---2---2-|---2---2---2---2-|
|-0---------------|-0---------------|-----------------|-----------------|
|-----------------|-----------------|-2---------------|-2---------------|
  lyd                       bry-ter   fre-den                   på  det
  sett                      hun har   lyt-tet                   hun har
  Bm7               E                 A
  :   .   .   .     :   .   .   .     :   .   .   .     :   .   .   .
|-------------2---|-----------------|-----------------|-0----------------||
|-----3---5-------|---------0-------|-----2---3---2---|-2---2---3---2---*||
|-----2---2-------|---------1-------|-----2---4---2---|-----2---2---2----||
|---4---4---4---4-|-----2-------2---|---2---2---2---2-|---2---2---2---2--||
|-2---------------|-----------------|-0---------------|-0---------------*||
|-----------------|-0---------------|-----------------|------------------||
  hvi-te sted hvor          Kaj-sa    er.                       Kaj-sas
  skreket nok, nå           ti- er    hun
  F                 C                 G/b     G         C       C/b
  :   .   .   .     :   .   .   .     :   .   .   .     :   .   .   .
|-------1---------|-0---------------|-----------------|-----------------|
|-----------1-----|-----------1-----|-3---------0-----|-1---------1-----|
|-2-----------2---|-------0-----0---|-------0-----0---|-------0-----0---|
|-----3---------0-(h2)--2---------0-|-----0---------0-|-----2---------0-|
|-----------------|-3-------3-------|-2---------------|-3-------2-------|
|-1-------1-------|-----------------|---------3-------|-----------------|
 Kaj  -   sa  se   stjernene              det er blitt kveld
  Am      /g        B7/f#   B7        E       Esus4     E       Esus4
  :   .   .   .     :   .   .   .     :   .   .   .     :   .   .   .
|-----------------|-----------------|-----------------|-----------------|
|-----------1-----|-----------0-----|-----------0-----|-----------0-----|
|-------2-----2---|-------2-----2---|-------1h2---2---|-1-----1h2---2---|
(h2)--2---------0-(h1)--1---------1-(h2)--2---------2-|-----2---------2-|
|-0---------------|---------2-------|-----------------|-----------------|
|---------3-------|-2---------------|-0-------0-------|-0-------0-------|
jor-den   gjør som  du, den spin-ner  rundt   seg       selv.
  E       Esus4     E
  :   .   .   .     :   .   .   .
|-----------------|-----------------|
|-----------0-----|-----------------|
|-1-----1h2---2---|-1---------------|
|-----2---------2-|-----------------|
|-----------------|-----------------|
|-0-------0-------|-0---------------|
                            Kaj-sa . . .
Kajsa går
gjennom parken.
De har ropt,
da lystrer hun
Freden følger
efter maten:
Hibanil, og nocinan
og valium.
Kajsa går til hvile og hun
sovner fort.
Kajsa er en stjerne
som har gått seg bort.
Natten er
uten drømmer                     A
stjernene                        :   .   .   .     :   .   .   .
er ganske nær                  |-----------------|-5---------------|
                               |-----2---3---2---|-2---------------|
Kajsas sang                    |-----2---4---2---|-2---------------|
var om gjerder,                |---2---2---2---2-|-2---------------|
Kajsas sang                    |-0---------------|-0---------------|
slutter her.                   |-----------------|-----------------|
                           . . . her.