Thousand Ways

By The Tallest Man on Earth (from The Wild Hunt, 2010)
Tabbed by Eyolf Østrem

Tuning: CFcfc'f' (C57575), capo 10th fret (album) or 8th fret (live)

The general picking pattern is this, with numerous (but not random) variations:

  :   .   .   .     :   .   .   .    
|-----------------|-0---------------|
|-----------0-----|-------0---------|
|-----0-----------|-----------0-----|
|-----0-------0---|-----0-------0---|
|-0-------0-------|-0-------0-------|
|-----------------|-----------------|

The descent at "thousand wakes of springtime" seems to be played with this little figure in the album version:

  :   .   .   .     :   .   .   .    
|-----------------|-----------------|
|---------0-------|-0-------0-------|
|---4p0---0-------|-0-------0-------|
|-------4-----4---|-----2-------0---|
|-0---------------|-----------------|
|---------4-------|-2-------0-------|
thousand wakes of   springtime and a 

It can be quite tricky to get it right, since it breaks the general picking pattern. In live versions, The Tallest Man himself uses the simpler version in the tab below.

Intro:

  :   .   .   .     :   .   .   .     :   .   .   .     :   .   .   .
|-----------------|-----------------|-----------------|-----------------|
|-------0---------|-------0---------|-------0---------|-------0---------|
|------0----------|------0----------|------0----------|------0----------| x3
|-----0-------0---|-----0-------0---|-----0-------0---|-----0-------0---|
|-0-------0-------|-0-------0-------|-----------------|-----------------|
|-----------------|-----------------|-2-------2-------|-2-------2-------|
  :   .   .   .     :   .   .   .     :   .   .   .     :   .   .   .    
|-----5------4----|-2-----0---------|-----5------4----|-2-----0---------|
|-----2-----0-----|-----------0-----|-----2-----0-----|-----------0-----|
|-----0----0------|-----------2-----|-----0----0------|-----------2-----| 
|-----0-------0---|-----0-------0 --|-----0-------0---|-----0-------0---|
|-0-------0-------|-0---------------|-0-------0-------|-0---------------|
|-----------------|---------4-------|-----------------|---------4-------|
  :   .   .   .     :   .   .   .     :   .   .   .     :   .   .   .    
|-----5------4----|-2-----0---------|-----5------4----|-2-----0---------||
|-----2-----0-----|-----------0-----|-----2-----0-----|-----------0-----||
|-----0----0------|-----------2-----|-----0----0------|-----------------||
|-----0-------0---|-----0-------0---|-----0-------0---|-----0-------0---||
|-0-------0-------|-0---------------|-0-------0-------|-0-------0-------||
|-----------------|---------4-------|-----------------|-----------------||
                                                                    Oh, 
   C                 F                 Bb
   :   .   .   .     :   .   .   .     :   .   .   .    
||-----------------|-----------------|-----------------|
||-----4-----4-----|-5---------------|-----------0-----|
||-----2-----2-----|-4---------0-----|-----0-----------|
||-----0-------0---|-----0-------0---|-----2-------2---|
||-0-------0-------|-0-------0-------|-5-------5-------|
||-----------------|-----------------|-----------------|
   I   have lived for ages I'm a       thousand turns of 
  F
  :   .   .   .     :   .   .   .    
|-----5------4----|-2-----0---------|
|-----2-----0-----|-----------0-----|
|-----0----0------|-----------------|
|-----0-------0---|-----0-------0---|
|-0-------0-------|-0-------0-------|
|-----------------|-----------------|
tides                       I'm a 
  F       /e        Dm      C         Bb                F
  :   .   .   .     :   .   .   .     :   .   .   .     :   .   .   .
|-----------------|-----------------|-----------------|-----------------|
|-----------0-----|-0---------0-----|-----------0-----|-----------0-----|
|-----0---------0-|-------0-------0-|-----0---------0-|-----0---------0-|
|-----0-------0---|-----0-------0---|-----2-------2---|-----0-------0---|
|-0---------------|-----------------|-5-------5-------|-0-------0-------|
|---------4-------|-2-------0-------|-----------------|-----------------|
thousand wakes of   springtime and a  thousand infant   cries   Oh, a 
  Bb                C                 F
  :   .   .   .     :   .   .   .     :   .   .   .     :   .   .   .     
|-----------------|-----------------|-----5------4----|-2-----0---------||
|-----------0-----|-0---------0-----|-----2-----0-----|-----------0-----||
|-----0---------0-|-------0---------|-----0----0------|-----------------||
|-----2-------0---|-----4-------0---|-----0-------0---|-----0-------0---||
|-5-------4-------|-----------------|-0-------0-------|-0-------0-------||
|-----------------|-0-------0-------|-----------------|-----------------||
thousand                infant        cries                      
I got sixteen hundred tigers now tied to silver strings
When they plowed in the pastures, oh the mighty heart will sing
Oh, the mighty heart will sing

But I'll

   C 
   :   .   .   .     :   .   .   .     :   .   .   .     :   .   .   .
||-----------------|-------0---------|-----------------|-0---------------|
||-----------0-----|-0---------0-----|-----------0-----|-------0---------|
||-----0-----0-----|-----------0-----|-----0-----------|-----------0-----|
||-----4-------4---|-----4-------4---|-----4-------4---|-----4-------4---|
||-2---------------|-----------------|-----------------|-----------------|
||-0-------0-------|-0-------0-------|-0-------0-------|-0-------0-------|
  always      be    blamed for the    sun going down with us 
  Bb
  :   .   .   .     :   .   .   .     :   .   .   .     :   .   .   .
|-----------------|-0---------------|-----------------|-0---------------|
|-----------0-----|-------0---------|-----------0-----|-------0---------|
|-----0-----------|-----------0-----|-----0-----------|-----------0-----|
|-----2-------2---|-----2-------2---|-----4-------4---|-----4-------4---|
|-5-------5-------|-5-------5-------|-5-------5-------|-5-------5-------|
|-----------------|-----------------|-----------------|-----------------|
  all.                                                      But I'm the 
  Dm                Bb                C
  :   .   .   .     :   .   .   .     :   .   .   .    
|-----------------|-----------------|-----------------|
|-----------0-----|-----------0-----|-----------0-----|
|-----0-----------|-----0-----------|-----0-----------|
|-----0-------0---|-----2-------0---|-----0-------0---|
|-4---------------|-5-------5-------|-----------------|
|-2-------2-------|-----------------|-0-------0-------|
  light   in the    middle      of    every man's    
  F
  :   .   .   .     :   .   .   .    
|-----5------4----|-2-----0---------|
|-----2-----0-----|-----------0-----|
|-----0----0------|-----------2-----|  rep. x4 between verses
|-----0-------0---|-----0-------0---|
|-0-------0-------|-0---------------|
|-----------------|---------4-------|
  fall 
I bend my arrows now in circles and I shoot around the hill
If I don't get you in the morning, by the evening I sure will
By the evening I sure will
Because I'm the fire on the mountain you have lit up in your dream
But also water on the fountain you could send myself on me
You could send myself on me

Because I'll always be blamed for the sun going down with us all
But I'm the light in the middle of every man's fall

Instrumental: 
  Dm                C                 F
  :   .   .   .     :   .   .   .     :   .   .   .     :   .   .   .
|-----------------|-----------------|-----5------4----|-2-----0---------|
|-----------0-----|-------0---------|-----2-----0-----|-----------0-----|
|-----0-----------|-2---------0-----|-----0----0------|-----------------|
|-----0-------0---|-----0-------0---|-----0-------0---|-----0-------0---|
|-4---------------|-----------------|-0-------0-------|-0-------0-------|
|-2-------2-------|-0-------0-------|-----------------|-----------------|
  Dm                C                 F
  :   .   .   .     :   .   .   .     :   .   .   .     :   .   .   .
|-----------------|-----------------|-----0------0----|-0---------------|
|-----------0-----|-------0---------|-----0-----0-----|-0---------0-----|
|-----0-----------|-2---------0-----|-----5----4------|-2-----0---------|
|-----0-------0---|-----0-------0---|-----0-------0---|-----0-------0---|
|-4---------------|-----------------|-0-------0-------|-0-------0-------|
|-2-------2-------|-0-------0-------|-----------------|-----------------|
  Dm                C                 F
  :   .   .   .     :   .   .   .     :   .   .   .     :   .   .   .
|-----------------|-----------------|-----5------4----|-2-----0---------|
|-----------0-----|-------0---------|-----2-----0-----|-----------0-----|
|-----0-----------|-2---------0-----|-----0----0------|-----------------|
|-----0-------0---|-----0-------0---|-----0-------0---|-----0-------0---|
|-4---------------|-----------------|-0-------0-------|-0-------0-------|
|-2-------2-------|-0-------0-------|-----------------|-----------------|
  C
  :   .   .   .     :   .   .   .     :   .   .   .     :   .   .   .
|-----------------|-0---------------|-----------------|-0---------------|
|-----------0-----|-------0---------|-----------0-----|-------0---------|
|-----0-----------|-----------0-----|-----0-----------|-----------0-----|
|-----4-------4---|-----4-------4---|-----4-------4---|-----4-------4---|
|-----------------|-----------------|-----------------|-----------------|
|-0-------0-------|-0-------0-------|-0-------0-------|-0-------0-------|
                                                            And no I 
never meant to say these words but yes you ought to know
That the dark in what I've always been, it will not ever go
No it will not ever go
And for so I lived a thousand years, a thousand turns of tides
Just a thousand leaves in autumn and a thousand ways to try

Oh, a 

  Bb                                  C
  :   .   .   .     :   .   .   .     :   .   .   .     :   .   .   .
|-----------------|-0---------------|-----------------|-0---------------|
|-----------0-----|-------0---------|-----------0-----|-------0---------|
|-----0-----------|-----------0-----|-----0-----------|-----------0-----|
|-----2-------2---|-----2-------2---|-----4-------4---|-----4-------4---|
|-5-------5-------|-5-------5-------|-----------------|-----------------|
|-----------------|-----------------|-0-------0-------|-0-------0-------|
  thousand              It's just a   thousand              ways to 
  F       /e        Dm7     F/c       Dm                C
  :   .   .   .     :   .   .   .     :   .   .   .     :   .   .   .    
|-----------------|-----------------|-----------------|-----------------|
|-----------------|-----------------|-----------0-----|-------0---------|
|-----0---0-------|-0---------0-----|-----0-----------|-2---------0-----|
|-----5-------4---|-----2-------0---|-----0-------0---|-----0-------0---|
|-0---------------|-----------------|-4---------------|-----------------|
|---------4-------|-2-------0-------|-2-------2-------|-0-------0-------|
  try,                                                          Ways to
  F       /e        Dm7     F/c       Dm                C
  :   .   .   .     :   .   .   .     :   .   .   .     :   .   .   .    
|-----------------|-----------------|-----------------|-----------------|
|-----------------|-----------------|-----------0-----|-------0---------|
|-----0---0-------|-0---------0-----|-----0-----------|-2---------0-----|
|-----5-------4---|-----2-------0---|-----0-------0---|-----0-------0---|
|-0---------------|-----------------|-4---------------|-----------------|
|---------4-------|-2-------0-------|-2-------2-------|-0-------0-------|
  try
  Bb
  :   .   .   .     :   .   .   .     :   .   .   .     :   .   .   .
|-----------------|-0---------------|-----------------|-0---------------|
|-----------0-----|-------0---------|-----------0-----|-------0---------|
|-----0-----------|-----------0-----|-----0-----------|-----------0-----|
|-----2-------2---|-----2-------2---|-----4-------4---|-----4-------0---|
|-5-------5-------|-5-------5-------|-5-------5-------|-5-------5-------|
|-----------------|-----------------|-----------------|-----------------|
                                      slow
  :   .   .   .     :   .   .   .     :   .   .   .     :   .   .   .
|-----------------|-----------------|-----------------|-----------------|
|-----------------|-0---------------|-----------------|-----------------|
|-------4---0-----|-------4---0-----|-2-------0-------|-0---------------|
|-----2-------0---|-----2-------0---|-0----------/4---|-0---------------|
|-----------------|-5-------5-------|-----------------|(0)--------------|
|-2-------2-------|-----------------|-----------------|-----------------|