Tallest Man on Earth: Trouble Will Be Gone

Written by The Tallest Man on Earth (Kristian Mattson)
Released on The Wild Hunt (2010)
Tabbed by Eyolf Østrem

Capo 7th fret (sounding key Eb major)
Tuning: Open G (DGdgbd')
  [intro]
  G                 D
  :   .   .   .     :   .   .   .     :   .   .   .     :   .   .   .
|-----------------|-----------------|-----------------|-----------------|
|-----------0-----|-1-----3-----0---|-----------0-----|-1p0-------0-----|
|-----0---------0-|-----------0-----|-----0---------0-|-------2-------0-|
|-----0-------0---|-----2-------0---|-----0-------0---|-----2-------0---|
|-0-------0-------|-0-------0-------|-0-------0-------|-0-------0-------|
|-----------------|-----------------|-----------------|-----------------|
  :   .   .   .     :   .   .   .     :   .   .   .     :   .   .   .
|-----------------|-------4-----0---|-----------------|-----------------|
|-----------0-----|-1---------------|-----------0-----|-1p0-------0-----|
|-----0---------0-|-----------0-----|-----0---------0-|-------2-------0-|
|-----0-------0---|-----2-------0---|-----0-------0---|-----2-------0---|
|-0-------0-------|-0-------0-------|-0-------0-------|-0-------0-------|
|-----------------|-----------------|-----------------|-----------------|
  :   .   .   .     :   .   .   .     :   .   .   .     :   .   .   .
|------------4----|-4-----0---------|-----------------|-----------0-----|
|-----------0-----|-------------0---|-0---------0-----|-0---------------|
|-----0----0------|-----------0-----|-------2-------0-|-------0-------0-|
|-----2-------2---|-----2-------0---|-----0-------0---|-----4-------0---|
|-----------------|-----------------|-0---------------|-----------------|
|-2-------2-------|-2-------2-------|---------4-------|-2-------2-------|
  :   .   .   .     :   .   .   .     :   .   .   .     :   .   .   .
|-----------2-----|-2p0-------------|-----------0-----|-------0---------|
|-----------------|-------1---0-----|-----0h1---------|-0h1-------------|
|-----0---------0-|---------------0-|-----2---------2-|-------------0---|
|-----2-------2---|-----2-------0---|-----0-------0---|-----0-------0---|
|-0-------0-------|-0-------0-------|-----------------|-----------------|
|-----------------|-----------------|-0-------0-------|-0-------0-------|
  :   .   .   .     :   .   .   .     :   .   .   .     :   .   .   .
|------------4----|-4-----0---------|-----------------|-----------0-----|
|-----------0-----|-------------0---|-0---------0-----|-0---------------|
|-----0----0------|-----------0-----|-------2-------0-|-------0-------0-|
|-----2-------2---|-----2-------0---|-----0-------0---|-----4-------0---|
|-----------------|-----------------|-0---------------|-----------------|
|-2-------2-------|-2-------2-------|---------4-------|-2-------2-------|
  :   .   .   .     :   .   .   .    
|-----------0-----|-----------------|
|-----1-----------|-1/3---3-----1---|
|-----0-----------|-2/4---4-----2---|
|-----2-------0---|-----0-------0---|
|-0-------0-------|-----------------|
|-----------------|-0-------0-------|
  :   .   .   .     :   .   .   .     :   .   .   .     :   .   .   .
|-----------------|-----------------|-----------------|-----------------|
|-----------0-----|-1-----3-----0---|-----------0-----|-1p0-------0-----|
|-----0---------0-|-----------0-----|-----0---------0-|-------2-------0-|
|-----0-------0---|-----2-------0---|-----0-------0---|-----2-------0---|
|-0-------0-------|-0-------0-------|-0-------0-------|-0-------0-------|
|-----------------|-----------------|-----------------|-----------------|
                                                            Oh when it's 
  [Verse]

    :   .   .   .     :   .   .   .     :   .   .   .     :   .   .   .
||------------------|-0---------------|-----------------|-----------0-----|
||*-----------0-----|-------0---------|-----------0-----|-0---------------|
||------0-----------|-----------0-----|-------2-------0-|-------0-------0-|
||------4-------4---|-----4-------0---|-----0-------0---|-----4-------0---|
||*-----------------|-----------------|-0---------------|-----------------|
||--2-------2-------|-2-------2-------|---------4-------|-2-------2-------|
 God  I   see in  headlights, kneeling down on frozen highways  and sal-
  deer is in the audience by the border of the darkness, where for-
  :   .   .   .     :   .   .   .     :   .   .   .     :   .   .   .      
|-----------------|-2---------------|-----------0-----|-------0----------||
|-----------1-----|-------1---------|-----0h1---------|-0h1-------------*||
|-----0---------0-|-----------0-----|-----2---------2-|-----------0------||
|-----2-------2---|-----2-------0---|-----0-------0---|-----0-------0----||
|-0-------0-------|-0-------0-------|-----------------|-----------------*||
|-----------------|-----------------|-0-------0-------|-0-------0--------||
  vation in white  knuckles on a  wheel                         And the
  giveness grows and slowly winds away                      Well, there's a
  :   .   .   .     :   .   .   .     :   .   .   .     :   .   .   .
|-----------------|-2---------------|-----------0-----|-------0---------|
|-----------1-----|-------1---------|-----1-----------|-1---------------|
|-----0---------0-|-----------0-----|-----2-----------|-2---------0-----|
|-----2-------2---|-----2-------0---|-----0-------0---|-----0-------0---|
|-0-------0-------|-0-------0-------|-----------------|-----------------|
|-----------------|-----------------|-0-------0-------|-0-------0-------|
  question somewhere asked with all the an  -   swers inside    But I'll
  :   .   .   .     :   .   .   .     :   .   .   .     :   .   .   .
|-----------------|-2---------------|-----------0-----|-------0---------|
|-----------1-----|-------1---------|-----0h1---------|-0h1-------------|
|-----0---------0-|-----------0-----|-----2---------2-|-----------2-----|
|-----2-------2---|-----2-------0---|-----0-------0---|-----0-------0---|
|-0-------0-------|-0-------0-------|-----------------|-----------------|
|-----------------|-----------------|-0-------0-------|-0-------0-------|
  never find the kid before she's   gone
  :   .   .   .     :   .   .   .    
|-------0---------|-4-----0---------|
|---1---------1---|-----------------|
|-----------2-----|-----------0-----|
|-----0-------0---|-----0-------0---|
|-----------------|-----------------|
|-0-------0-------|-0-------0-------|
                            Well, the
  :   .   .   .     :   .   .   .     :   .   .   .     :   .   .   .
|-----------------|-0---------------|-----------------|-----------0-----|
|-----------0-----|-------0---------|-----------0-----|-0---------------|
|-----0-----------|-----------0-----|-------2-------0-|-------0-------0-|
|-----4-------4---|-----4-------0---|-----0-------0---|-----4-------0---|
|-----------------|-----------------|-0---------------|-----------------|
|-2-------2-------|-2-------2-------|---------4-------|-2-------2-------|
  day is never done, but there's a light on where you're sleeping, so I
  :   .   .   .     :   .   .   .    
|-----------------|-------0---------|
|-----------1-----|-1---------------|
|-----0-----------|-2---------2-----|
|-----2-------0---|-----0-------0---|
|-0-------0-------|-----------------|
|-----------------|-0-------0-------|
 hope some day your trouble will be  
  :   .   .   .     :   .   .   .     :   .   .   .     :   .   .   .
|-----------------|-----------------|-----------------|-----------------|
|-----------0-----|-1-----3-----0---|-----------0-----|-1p0-------0-----|
|-----0---------0-|-----------0-----|-----0---------0-|-------2-------0-|
|-----0-------0---|-----2-------0---|-----0-------0---|-----2-------0---|
|-0-------0-------|-0-------0-------|-0-------0-------|-0-------0-------|
|-----------------|-----------------|-----------------|-----------------|
  gone
  :   .   .   .     :   .   .   .     :   .   .   .     :   .   .   .
|-----------------|-------4-----0---|-----------------|-----------------|
|-----------0-----|-1---------------|-----------0-----|-1p0-------0-----|
|-----0---------0-|-----------0-----|-----0---------0-|-------2-------0-|
|-----0-------0---|-----2-------0---|-----0-------0---|-----2-------0---|
|-0-------0-------|-0-------0-------|-0-------0-------|-0-------0-------|
|-----------------|-----------------|-----------------|-----------------|
But now the ghost is in my jacket and my stairs were built in anger
Winding forcefully but end up where I stand
But there are no rocks or salt and nails, I load my cannons not to kill you
Simply lost the words to tell you I'm afraid
And there's a sign up to a hill to see the far of the land
Well the sign will tell you, "Turn if there's a one"
Still the day is never done, but there's a light on where you're sleeping
So I hope somewhere that troubles will be gone
Oh darling, when it's you I see in headlights, driving down the golden highway
And salvation in the beauty of some brace
And the deer is gone without me to the valley of surrender
There is still another world along it's tracks
But there's that sign up to a hill to see the far of the land
Well the sign will say, "There's still a higher one"
And now the day is slowly setting, and the light's on where you're sleeping
So I hope somewhere that troubles will be gone